Tera Hua Easy Guitar chords & Strumming Pattern | Atif Aslam | LoveYatri




Presenting Dhire Dhire Tera hua Guitar Chords & Strumming Pattern, Beautifully Sung by Atif Aslam & Composed by Tanishk Bagchi From the movie Loveyatri, Learn to play this song easily with easyguitarson.com.

Film: Loveyatri
Song: Tera Hua
Singer: Atif Aslam
Music: Tanisk Bagchi
Lyrics: Muntashir Manoj
Label: T-Series
Language: Hindi
Year: 2018



Key/Scale:  D Major

Chords Used:  D, Bm, A

Dhire Dhire Tera hua Guitar Chords & Strumming Pattern By Atif Aslam



Strumming Pattern: DUUD UUD 


/ = Slide Forward
\ = Slide Backword

Guitar Intro tab
E------------------------------------------------------------
B---10--10--10--10---10---10---10---10---10----10-----10---10
G-11--11--11--9---9----9----7----7----7-----------------11---
D-------------------------------------------9-----9/10-------
A------------------------------------------------------------
E------------------------------------------------------------

E-------------------------------------------------------------

B-------10--10--10---10--10-10----10--10---10---10-----10---10
G-11-11---11--11--9-9---9--9---7-7---7---7----------------11--
D---------------------------------------------9----9/10-------
A-------------------------------------------------------------
E-------------------------------------------------------------


      [D]          [Bm]

Tere kareeb aa rh a hoon
             [D]         [Bm]
Khud se mai door ja raha hoon
     [D]           [Bm]
Ye bewajah  to nhi hai
      [A] 
Tu jo Mila.....





            [D]     [Bm]   [A]
Dhire Dhire se tera hua



     [D]     [Bm]   [A]

Hole Hole se tera hua
      [D]     [Bm]   [A]
Rafta Rafta tera hua 
              [D]
Tere bin mai hoon benishan





                    [D]         [Bm]
Samjho jara samjho ishara
          [D]      [A] [D]
Tera hoon mai sara ka sara
       [D]   [A]      [Bm]
Jaise mujhe tumse hua hai
[A]     [D]     [A]   [D]
Ye pyar na hoga do baraa



        [D]      [Bm]

Dil me teri jo jagah hai
       [D]      [Bm]
Uski koi to wajah hai
      [D]      [Bm]
Ye bewajah to nahi hai
       [A]
Tu jo mila.......





           [D]     [Bm]   [A]

Dhire Dhire se tera hua



     [D]     [Bm]   [A]

Hole Hole se tera hua
      [D]     [Bm]   [A]
Rafta Rafta tera hua 
              [D]
Tere bin mai hoon benishan




In case if you find any mistake please comment below.
Thank you.


Post a Comment

0 Comments